/
  • Streaming + Download

    Includes high-quality download in MP3, FLAC and more. Paying supporters also get unlimited streaming via the free Bandcamp app.

      name your price

     

lyrics

PART 1
TUNING: Low [ D A D Bb B D ] High

------- --------- ------- -7-5---7-
-3-3-5- -7-8-6-6- ------- -6-6-6-8-
-4-5-7- -6-6-5-7- ------- -7-7-7-9-
-4-5-7- -7-7-6-6- ------- ---------
------- --------- ------- ---------
------- --------- -0-2-3- ---------

PART 2
TUNING: Standard

---------- ---------- -------------------- ---------
---------- ---------- -------------------- ---------
---------- ---------- ---------9-11-12-11- ---------
-12-14-15- ---------- -9-11-12------------ ---------
---------- -12-14-15- -------------------- -9-11-12-
---------- ---------- -------------------- ---------

--------- ---------- -------10-12-
--------- ---------- -10-12-------
--------- ---------- -------------
--------- ---------- -------------
--------- ---------- -------------
-9-11-12- -12-14-15- -------------

credits

tags

license

all rights reserved

about

Mortimer Nova Tampa, Florida

Mortimer Nova is an experimental indie / anti-folk / indietronic group fronted by Michael Vilches based out of the Tampa Bay area in Florida. Mortimer Nova was ranked #14 on Non-Hollywood's "25 Indie Music Artists Worth Paying For" poll in 2014.

contact / help

Contact Mortimer Nova

Streaming and
Download help

Shipping and returns

Redeem code